İnternet Tablarını okumak

Paco de Lucia
Daimi Üye
E----------------------------------------------------------------
B----------------------------------------------------------------
G----------------------------------------------------------------
D----------------------------------------------------------------
A----------------------------------------------------------------
E----------------------------------------------------------------

bu internet tablarının genel boş yazılımıdır... dikkat ederseniz ters gibi görünecektir
ama böyle olmasının sebebi tutuşa göre hazırlanmış olmasıdır...

E----------------------------------------------------------------
B----------------------------------------------------------------
G----------------------------------------------------------------
D------------------------------------0--1--2--3--4---------------
A----------------------0--1--2--3--4-----------------------------
E---0--1--2--3--4------------------------------------------------

gibi bir örnek verelim... buradaki sayılar o telin hangi perdesine bastığımızı
göstermek içindir... yani 0 olunca boş, 1 olunca birinci perde, 2 olunca ikinci perde gibi...

aynı zamanda şöyle bir örnekle karşılaşırsak :

E----------------------------------------------------------------
B----------------------------------------------------------------
G----------------------------------------------------------------
D----------------------------------------------------------------
A---3--5---------------------------------------------------------
E---1--3---------------------------------------------------------

üstüste olan sayılar olduğunu görünce ne yapmamız gerekiyor??
bunu şöyle anlatayım üstüste olan sayılar aynı anda basılması gerektiğini gösterir
yani e telinin 1. perdesi ile A telinin 3. perdesine birlikte basacaksınız...

E-----0-----------------------------------------------------------
B---0--0---------------------------------------------------------
G--0----0--------------------------------------------------------
D----------------------------------------------------------------
A----------------------------------------------------------------
E-0-------0-------------------------------------------------------

böyle bir durumda ise soldan sağa doğru okuyarak her teli ayrı ayrı çalmak gerekli.

şimdi gelelim tablarda gördüğünüz çeşitli harf ve sembollere ve ne anlama geldiklerine :

e:---------------------------------------------------------------------------|
B:----8--8--7---7---------------------------------8--8--7---7----------------|
G:-7---------------7~~~---------7/9--9\7~~~----7---------------7~~~------9~~~|
D:-----------------------7/9\7--------------------------------------7/9------|
A:---------------------------------------------------------------------------|
E:---------------------------------------------------------------------------|

burada görülen semboller ne anlamda??

7~~~ : yedinci perdede vibrato
7/9\7: 7 den 9 a 9 dan 7 ye slide
gibi...

çoğu tabın başında tabda kullanılan harf ve sembollerin anlamı zaten belirtilmiştir
bu yüzden tabı tam anlamıyla çalabilmek için bu tekniklerin iyi bir şekilde bilinmesi
gerekir...

örneğin :

h = hammer on a.h = Artificial Harmonic
p = pull off s.h = Semi Harmonic
/ = slide up w/bar = use tremolo bar
\ = slide down

^=legato
9(11)=bend note to pitch in parentheses
~=vibrato
ph=pinch harmonic
t=tap



gibi...

Aynı zamanda tabların başlarında tellerin hangi notalara akort edileceği de gösterilir

örneğin :

D tuning (DAdGBe) ....

Çoğu yeni gitarist için zor gibi görünebilir ama bir kaç tabı okuduktan sonra emin olun
ki kolay gelecek ;)

hadi şimdi de bir çalışma verelim bari :)

yeni başlayanlar için parmak alıştırmaları : ( kas belleğinizi geliştirmek için )
(alternate picking ile çalışmak gerekiyor )

E-------------------------------------------------------------
B-------------------------------------------------------------
G-------------------------------------------------------------
D-------------------------------------------------------------
A--------------------------------------1-2-1-3-1-4-1-5-1-6-1-7
E-1-2-1-3-1-4-1-5-1-6-1-7-1-8-1-9-1-10------------------------


|------------------------------------------1-2-3-4--5-4-3-2----------------
|----------------------------------1-2-3-4------------------5-4-3-2--------
|--------------------------1-2-3-4----------------------------------5-4-3-2
|------------------1-2-3-4-------------------------------------------------vs...
|----------1-2-3-4---------------------------------------------------------
|--1-2-3-4-----------------------------------------------------------------


|-------------------------------1-2-3--4-3-2-------------------------------
|-------------------------1-2-3--------------4-3-2-vs.---------------------
|-------------------1-2-3--------------------------------------------------
|-------------1-2-3--------------------------------------------------------
|-------1-2-3--------------------------------------------------------------
|-1-2-3--------------------------------------------------------------------


|----------------------1-3--4-2--------------------------------------------
|------------------1-3----------4-2----------------------------------------
|--------------1-3------------------4-2------------------------------------
|----------1-3---------------------------4-2-------------------------------
|------1-3-----------------------------------4-2-vs...---------------------
|--1-3---------------------------------------------------------------------


|--------------------------------------------------------------------------
|--------------------------------------------------------------------------
|--------------------------------------------------------------------------
|--------------------------------------------------------------------------
|-------------------------------1-2-3-4--5-6-7-8----vs...------------------
|-1-2-3-4--5-6-7-8--9-10-11-12---------------------------------------------

bunları kendiniz de çoğaltabilirsiniz....


GMaj. 1. pozisyon'da çalışma:

|-------------------------------------------------------------2---3--------
|----------------------------------------------------3---5--3---5----------
|------------------------------------2----4--2--5--4---5-------------------
|---------------------2---4--2--5--4----5----------------------------------
|--------2---3--2-5-3---5--------------------------------------------------
|-2-5--3---5---------------------------------------------------------------

gibi çalışmalarla hem tab okumanızı geliştirebilir hem de gamlara ufak bir başlangıç
yapmış olursunuz
aynı zamanda parmaklarınızın gelişimi ve hızlanması için de önemli olacaktır.
benden şimdilik bu kadar :)


Yazan: Tolga GÖKTÜRK
 
metatron
Super Moderator
Site Yetkilisi
oldum olası tab sevmedim. karısık geldi hep bana. :) ama yararlanacak arkadaslar olacaktır eminim;)
 
Paco de Lucia
Daimi Üye
oldum olası tab sevmedim. karısık geldi hep bana. :) ama yararlanacak arkadaslar olacaktır eminim;)
eğer gitardan bahsediyorsak,gitarı gitar yapan şey NOTA dır zaten :)

Tab,yeni başlayanlar için biraz daha kolay geldiği için tercih edilir.Nota okuma gerektirmez,uğraş da gerektirmez pek fazla :p

ama pratiktir,severim kendilerini...
 
зSЯa
Forum Ustası
parmak uclarim nasir tutucak korkusuyla hic denemedim gitar calmayi ama cok istedim :) emegine saglik :)
 
Paco de Lucia
Daimi Üye
parmak uclarim nasir tutucak korkusuyla hic denemedim gitar calmayi ama cok istedim :) emegine saglik :)
nasır tutmaz :)

fakat sol elinizin parmakları (akor bastığınız) telin boyası gibi maviye dönük bir renk alabilir :p

ve parmak kaslarınız gelişir,ilk başlarda biraz acı duyacaksınız ister istemez,emeksiz yemek olmaz :) fakat nasır tutma olayı kesinlikle olmayacaktır...;)
 
Paco de Lucia
Daimi Üye
4,5 Yıldır gitar eğitmenliği yapıyorum,nasır tutan parmakla karşılaşmadım :)

Sürekli Akor basıyorsanız bir ihtimal olabilir,fakat solo atıyorsanız,yada flamenko yapan insanların parmaklarında asla nasır görülmez ;)

11 yıl önce öğrendim ilk defa.Nasır sorunum olduğunu hatırlamıyorum :)

Ben (3) üst kademe (ileri eğitim düzeyi) dersi veriyorum..Nota ve Flamenko üzerine uzmanlığım var..eğitmenlik süresi boyunca hiç nasır tutan parmak görmedim

1.Kademe (yeni başlayanlar,ilk öğrenenler) de sürekli akor basıldığı için,parmaklar ve eklemlerde gelişmemiş olduğundan bir ihtimal olabilir nasır..fakat bir veya iki haftayı geçeceğini sanmıyorum.kaslar alışana kadar bazı insanlarda görülebilme ihtimali mevcuttur :)

şahsıma soracak olursanız,karşılaşmadım :)
 
- Yönetici düzenlemesi: :
Üst